Logowanie



Pamietaj mnie!

Załóż konto | Przypomnij hasło

Kurs gitarowy

Z myślą o początkujących...

Bogaty w liczne zdjęcia, schematy, filmy pokazowe poradnik dla "młodego gitarzysty".

Kurs został napisany z myślą o ludziach, którzy właśnie zaczynają swoją przygodę z gitarą.

Chcesz się nauczyć gry na gitarze? Mamy nadzieję, że zamieszczony tutaj kurs pomoże Ci osiągnąć ten cel.
Przejdź do kursu

Koszulki z logo serwisu

Oficjalne koszulki serwisu Gitarius.pl. Do wyboru różne rodzaje, kolory, wzory...

Cena koszulki:

Zobacz T-shirty

blog.gitarius.pl

Każdy znajdzie coś dla siebie...

Jako pasjonaci gitary i namiętni słuchacze muzyki będziemy każdego dnia dostarczać na łamach bloga garść publikacji mniej lub bardziej związanych z tematyką gitarową, a więc newsy, testy, recenzje, relacje, wywiady itp.

Projekt prowadzony jest przez grupę hobbystów, dla których przygoda z gitarą zaczęła się już dawno a trwać będzie jeszcze dłużej.
Wejdź na bloga

Gitarius.pl na Facebooku

Statystyki

  • Opracowań: 8447
    Ostatnie 7 dni: 0
  • Filmików: 6
    Ostatnie 7 dni: 0
  • Komentarzy: 5578
    Ostatnie 7 dni: 259
  • Opracowanie

Breakout - Kiedy bylem malym chlopcem

chwyty tab

Autor słów: Brak danych
Autor muzyki: Brak danych
K.. a K.. a W.. d W.. a N.. e S.. d a
Data dodania: 2006-07-20 Dodał: Gitarius.pl Źródło: Własne
Oceń opracowanie:
[średnia ocen: 1.25 / liczba głosów: 2]
Ideą serwisu Gitarius.pl jest bezpłatny dostęp do wszystkich zamieszczanych materiałów. Jeśli chciałbyś dobrowolnie wesprzeć ten projekt i pomóc w jego rozwoju – masz taką możliwość. Wszelkie wpłaty przeznaczone zostaną na pokrycie kosztów funkcjonowania i rozwój strony.

Komentarze (7)

Dodaj komentarz

Aby umieścić zapis tabulaturowy w treści komentarza - użyj tagów [tab][/tab].
Imię:
Wynik działania:
8 + 0 =

Zgłoś nadużyciekonto usunięte - 2012-04-21 16:38:30
 napisał/aMam wersję dla bardziej zawaansowanych: Najpierw a (lub jak ktoś chce Am), potem D7(Tak samo jak przy C-durze tylko na 5, 6, 7 progu i z małym palcem na 7 progu struny G.)
i na koniec E7 (To samo jak przy D7 tylko na 3, 4, 5 progu.) To trochę skomplikowane... ale życzę powodzenia (:
konto usunięte
Zgłoś nadużycieReklama - 2017-03-28 14:04:50
Reklama
Reklama
Zgłoś nadużycieKacper (gość) - 2011-11-01 18:00:31
 napisał/a
Intro:
--10----7---------7--|-10----7--------7--------------------|
-------------10------|-----------10-------10s8-------------|
---------------------|-----------------------------10s8----|
---------------------|-------------------------------------|
---------------------|-----------------------------------9-|
---------------------|-------------------------------------|

-----------------------------------|
----------8---8---9----9---10------|
-7--7---------------------------7--|
-----------------------------------|
-----------------------------------|
-----------------------------------|

--10---7--------7-------------------
-----------10--------10s8-----------
---------------------------10s8-----
----------------------------------9- x2
------------------------------------
------------------------------------
Kacper (gość)
Zgłoś nadużycieKacper (gość) - 2011-11-01 17:44:28
 napisał/awiktor dobrze gada...
Kacper (gość)
Zgłoś nadużyciemisiamisia14 - 2008-08-04 19:20:44
misiamisia14 napisał/anie tamm chyba nie ma 'd'.wydaje mi się że tam były takie akordy jak:a,e,H7 tylko że w jakiejś tam kolejności i dobrze wtedy brzmiało
misiamisia14
Zgłoś nadużycieriders71 - 2007-11-03 07:36:02
riders71 napisał/apiękny utwór
riders71
Zgłoś nadużyciewiktor - 2007-06-22 18:14:15
wiktor napisał/anie wiem może ja jestem kaleka ale jakos z tyh chwytów nie wyhodzi ta żwawa piosenka dosc
wiktor
Zgłoś nadużyciethamian - 2007-05-31 00:07:27
thamian napisał/atak jest :P tylko bluesa gra się akordami septymowymi
thamian
Buduj z nami społeczność
serwisu - dołącz do nas!!! Zarejestruj się!